Download Tune mere jana(rohan rathore) -completeguitar tutorial(chord s+strumming) video

Download Tune mere jana(rohan rathore) -completeguitar tutorial(chord s+strumming) video on savevid.com

Download Tune mere jana(rohan rathore) -completeguitar tutorial(chord s+strumming) streaming video in flv, mp4, avi formats direct easily on Savevid.com.

 

Tune mere jana(rohan rathore) -completeguitar tutorial(chord s+strumming)

  • Share:
                    
  • Provider: YouTube Link: http://www.youtube.com/watch?v=BmTh6niEuJI
  • Rate: Please rate this video Views: 10 Downloads: 2
  • Description: chords used in this song are
    FM,Am,A#M,CM,Dm,Gm

    E-------------------------------------------------
    A-------------------------------------------------
    D------------------------------------------------
    G------------------------------------------------
    B-6-------------6-------------------------------
    E-----5--7--5-----5--7--5---------------------
    E-------------------------------------------------
    A-------------------------------------------------
    D-------------------------------------------------
    G-------------------------------------------------
    B-5-------------5-------------------------------
    E-----5--7--5-----5--7--5--------------------

    E------------------------------------------------
    A-------------------------------------------------
    D-------------------------------------------------
    G-------------------------------------------------
    B-3--6----6---3--6-----6----------------------
    E-------6--------------6------------------------

    E-------------------------------------------------
    A-------------------------------------------------
    D-------------------------------------------------
    G-5----------------------------------------------
    B----5------5------------------6----------------
    E--------3-------3---5---3--------------------

    play above tabs twice initially

    strumming pattern :DDududD
    FM
    Ho love of mine
    Am
    with the song and a wine
    A#M
    your harsh and devine
    CM
    like truth and a lie

    ...similarly for next stanza...

    .FM
    In the bright emptiness
    CM
    In the rum full of it
    Dm
    Is a cruel misteress
    CM
    oh hooo

    ....similary for nex stanza

    Dm Dm
    Tune mere jana Kavi nai jana

    A#M CM
    Ishq mera dard mera haayeee...

    ...rest of song are same as above...
  • Tags: , , , , , , , , , lessoon, , accoustice
  • Category: Flag video Music